Home » 2017 » August » 24 » Doc Watson Nothin To It Chords Capo No
2:47 PM
Doc Watson Nothin To It Chords Capo No
C 
e|------0----1----2----|---3--0-5--3---0------0--------|
B|---------------------|-------------4---1--1----------|
G|---------------------|*------------------------3-3---|
D|---------------------|*----------------------------0-|
A|---------------------|-------------------------------|
E|---------------------|-------------------------------|

 F C C 
e|--------------------------0-|--3-0-3-0-5-3---0------0-------|
B|--------3--1---0-1----------|--------------4---1--0-----1-0-|
G|----2-2------2----------0---|-------------------------------|
D|--3-------------------------|-------------------------------|
A|----------------------------|-------------------------------|
E|----------------------------|-------------------------------|
 
e|-----0-2--0---5-3----3----8--|--------8-------------------------|
B|--3---------3------3---3-----|---10-8---10-0-----8-10-8---------|
G|-------------------4---4-----|---------------8-9--------9-------|
D|-----------------------------|----------------------------0---9-|
A|-----------------------------|----------------------------------|
E|-----------------------------|----------------------------------|
 
e|----------------------0-0------|----------------------3---3-----|
B|------1-3--1---0-1----1-1------|--------0-1-0-1-0-3/5-5-----3-4-|
G|----2--------2------0------0-1-|--2-1-2-------------------------|
D|--3----------------------------|--------------------------------|
A|-------------------------------|--------------------------------|
E|-------------------------------|--------------------------------|
 
e|--0-3-0-----------------------0--|---3-0-3-0-5------5----------|
B|--------4-3-1-----1----1--1-1----|--------------4b----4--1-----|
G|--------------2-0----0----------*|*----------------------------|
D|--------------------------------*|*----------------------------|
A|---------------------------------|---------------------------x-|
E|---------------------------------|-----------------------------|
 
e|----------------------0-------0-|--3-0-3-0-5-3---0-------0-----0-|
B|--------3------0-1--------1-1---|--------------4---4-0-4---1-----|
G|----2-2----2-2------0---0-------|--------------------------------|
D|--------------------------------|--------------------------------|
A|--3-----------------------------|--------------------------------|
E|--------------------------------|--------------------------------|
 
e|-----0-2--0----3----3-------|-----8-----8--------0-------|
B|--3---------3---------3-----|-------------8--1-----------|
G|------------------4---4/-9--|---7---9-9--------------3---|
D|----------------------------|--------------------------x-|
A|----------------------------|----------------------------|
E|----------------------------|----------------------------|
 
e|-------------------------------|----------------------5--5-----|
B|------1-3--1---0-1----1--------|--------0-1-0-1--3-5/------3-4-|
G|----2--------2------0---3--0-1-|--2-1-2------------------------|
D|--3-----------------2----------|-------------------------------|
A|-------------------------------|-------------------------------|
E|-------------------------------|-------------------------------|
 
e|--0-3-0-------------------------|----------------------------|
B|--------4-3-1-----1----1----1---|----------------------------|
G|--------------2-0----0----0-0--*|*---------------------------|
D|-------------------------------*|*----2----2------2------2-3-|
A|--------------------------------|--------2-----------2-------|
E|--------------------------------|---0-----------0------------|
 
e|-------------------0--------|-------------------0-------0-1-|
B|-----------------1----------|----------------------0-0------|
G|-----------------2-----2-2--|----------1----1---------------|
D|--2--0---------------2------|----2---2-2--2---2-------------|
A|--------3--2--0-------------|------2------------------------|
E|----------------------------|--0----------------------------|
 
e|--0h1h0------------------0---0--|---3--0-5--3---0-----0--------|
B|--------3--1h0h1-0-------0------|-------------4---1---1--1-----|
G|--------------------2----0-----*|*--------------------3----3---|
D|-------------------------0-----*|*---------------------------0-|
A|-------------------------2------|------------------------------|
E|-------------------------3------|------------------------------|
 
e|----------------------0------0-|--3-0-3-0-5-0---0---0---0--------|
B|------1-3--1---0-1--1----1-1---|--------------4---4---4---1----0-|
G|----2--------2------0----------|-----------------------------0---|
D|--3----------------------------|---------------------------------|
A|-------------------------------|---------------------------------|
E|-------------------------------|---------------------------------|
 
e|-----0-2--0----3----3-------|-----8------8--------0--------|
B|--3---------3--3------3-----|-------8-10---8--1------------|
G|------------------4---4/-9--|---9----------9---------3-----|
D|----------------------------|--------------------------2-0-|
A|----------------------------|------------------------------|
E|----------------------------|------------------------------|
 
e|----------------------0--------|----------------------3---3-----|
B|------1-3--1---0-1--1----------|--------0-1-0-1--3-5----5---3-4-|
G|----2--------2------0----0-0h1-|--2-1-2-------------------------|
D|--3----------------------------|--------------------------------|
A|-------------------------------|--------------------------------|
E|-------------------------------|--------------------------------|
 
e|--0-3-0---------------------------|---------------------------------|
B|--------4-3-1-----1----1-------1--|---------------------------------|
G|--------------2-0----0---0-0-0---*|*--0---0-2--0-------------0------|
D|---------------------------------*|*----2--------2-0-1-0---1---3-0--|
A|----------------------------------|----------------------3----------|
E|----------------------------------|---------------------------------|
 
e|-----------------------------|----------------------------------|
B|-----------------------------|--------0-1-----1-----------------|
G|-----------------------------|----0-2-----2-0---2-0---------0-0-|
D|-----------0-------------0-1-|--2-------------------2-0---2-----|
A|------0-3-----0-3---3-3------|--------------------------3-------|
E|--1-1------------------------|----------------------------------|
 
e|-----------------------------0-|--3-0-5-3---0---0---0---0---------|
B|---------3-1-0-----------0-0---|----------4---4---4---4---1-------|
G|---------------2-0-----0-0-0---|----------------------------0---0-|
D|--0--4h2-------------3---------|------------------------------2---|
A|-------------------------------|----------------------------------|
E|-------------------------------|----------------------------------|


************************************

| * Natural harmonic
| / Slide up
| b Bend
| x Dead note
| h Hammer-on

************************************
Video https://www.youtube.com/ Source https://chords.tv/
Views: 18 | Added by: changwoonzern | Rating: 0.0/0
Total comments: 0
avatar